Corcovado
"C.Jobim"


un doigté assez simple pour cette bossa sympatoche, n'hesitez pas à me corriger si vous voyez une erreur..
Une ecoute attentive de l'original aidera pour placer tout ça correctement dans le temps et pour la structure.
Enjoy !



 |       |       |       |        |       |       |       |        
|----------------5-----7-----8---|7---5---------------------------|
|--------------------------------|------------5---------------5---|
|--------------------------------|--------------------7-----------|
|--------------------------------|--------------------------------|
|--------------------------------|--------------------------------|
|--------------------------------|--------------------------------|

PART A

Am6                               G#dim5+ 
 |       |       |       |        |       |       |       |        
|--------------------------------|--------------------------------|
|--------------------------------|------------5-------4-------3---|
|--------------------------------|----4---------------------------|
|--------------------------------|--------------------------------|
|--------------------------------|--------------------------------|
|--------------------------------|--------------------------------|
 Gm7                              C9
 |       |       |       |        |       |       |       |        
|--------------------5---6-------|5-----------8-------5-----------|
|----------------8---------------|----8-----------------------8---|
|--------------------------------|--------------------------------|
|--------------------------------|--------------------------------|
|--------------------------------|--------------------------------|
|--------------------------------|--------------------------------|
FM7                               Fm6 
 |       |       |       |        |       |       |       |        
|----5---------------------------|--------------------------------|
|--------------------------------|--------------------------------|
|------------------7-----5-------|7---------------------------5---|
|--------------------------------|--------------------------------|
|--------------------------------|--------------------------------|
|--------------------------------|--------------------------------|
Em7                               Am7 
 |       |       |       |        |       |       |       |        
|--------------------------------|--------------------------------|
|--------------------------------|--------------------------------|
|7---9-------9-------------------|----------------7-------5-------|
|--------------------------------|--------------------------------|
|--------------------------------|--------------------------------|
|--------------------------------|--------------------------------|
D9                                G#dim5+ 
 |       |       |       |        |       |       |       |        
|--------------------------------|--------------------------------|
|--------------------------------|--------------------------------|
|7---------------5---4---5-------|4-----------------------7-------|
|--------------------------------|--------------------------------|
|--------------------------------|--------------------------------|
|--------------------------------|--------------------------------|
 

Am6|./.|G#dim5+|./.|Gm7|C11|FM7|F6|Fm7|./.|Em7|A75+|Am6|Am6|Dm7|Abdim|Am6| 

Am6|./.|G#dim5+|./.|Gm7|C11|FM7|F6|Fm6|Bb7|Em7|Am7|Dm7|G11 G9-|Em75-|A75+|Dm7|G11 G9-|Am6|

Part A + |Am6|...|
 
Accords :
-------
Am6       5X455X
G#dim5+   4X345X
Gm7       3X333X
C11       x3333X
FM7       1X221X
Fm6       1x011X 
Em7       0X575X
Am7       5X555X 
D9        X5455X
G11       3X321X
G9-       3X310X
Em75-     X7878X
A75+      5X566X
Abdim     4X343X 

 

Imprimer cette page

Tablatures created with TablEdit exported HTML. Le Derf - Janvier 2012.