Freedom

Steve Lukather - "Candyman"


Tabledited by Deurf
Pour une version JPEG, printable ou sauvable, clickez ici


 Intro   |       |       |   x4   |       |       |       |
|--------------------------------|--------------------------------|
|6-------------------6---6---4---|--------------------------------|
|6-------------------6---6---4---|--------------------------------|
|4-------------------4---4---2---|--------------------------------|
|----------------2---------------|--------------------------------|
|----0---2---4-------------------|--------------------------------|

 Part A  |       |     x8|        Part B  |       |       |
|--------------------------------|--------------------------------|
|5-5-X-X-5---X-X-X-X-5---X-X-X-X-|--------------------------------|
|4-4-X-X-4---X-X-X-X-4---X-X-X-X-|--------------------------------|
|3-3-X-X-3---X-X-X-X-3---X-X-X-X-|--------------------------------|
|4-4-X-X-4---X-X-X-X-4---X-X-X-X-|4---4---2---2-------------------|
|--------------------------------|----------------4---4---2---2---|

 |       |       |       |        |       |       |       |
|--------------------------------|--------------------------------|
|--------------------------------|--------4-----------------------|
|--------------------------------|--------4-----------------------|
|--------------------------------|----X-X-4-----------------------|
|--------------------------------|----X-X-------------------------|
|0---0---(0)-----------------0---|0---X-X---------------------0---|

 |       |       |       |        Part C  |       |       |
|--------------------------------|--------------------------------|
|--------2-----------------------|--------------------------------|
|--------2-----------------------|--------------------X-X-----X-X-|
|----X-X-2-----------------------|--------------------X-X-----X-X-|
|----X-X-------------------------|--------------------X-X-----X-X-|
|0---X-X-------------------------|------------0---0---X-X-2---X-X-|

 |       |       |       |        |       |       |       |
|--------------------------------|--------------------------------|
|--------------------------------|----------------4---------------|
|----X-X-----X-X-----X-X---------|----------------4---------------|
|----X-X-----X-X-----X-X-2-------|--------------------------------|
|----X-X-2---X-X-4---X-X---------|--------------------------------|
|5---X-X-----X-X-----X-X-----0---|2---------------------------0---|

 |       |       |       |        Part D  |       |       |
|--------------------------------|--------------------------------|
|----------------2---------------|--------------------------------|
|----------------2---------------|--------------------------------|
|--------------------------------|--------4-4-4-4-4---2---1-------|
|--------------------------------|----------------------------4---|
|2---------------------------0---|--------------------------------|

 |       |       |       |        |       |       |       |
|--------------------------------|--------------------------------|
|--------------------------------|--------------------------------|
|--------------------------------|--------------------------------|
|------------X-X-------------2---|2---------------2-2-2-2-2-2-2-2-|
|----X-X-----X-X-2---2---4-------|--------------------------------|
|2---X-X-5-----------------------|--------------------------------|

 |       |       |       |        |       |       |       |
|--------------------------------|--------------------------------|
|--------------------------------|--------------------------------|
|--------------------------------|--------------------------------|
|------------X-X-------------4---|4-------------------------------|
|----X-X-----X-X-2---2---4-------|--------------------------------|
|2---X-X-5-----------------------|--------------------------------|

Part E  |       |       |        |       |       |       |
|--------------------------------|--------------------------------|
|11b-------------11b-------------|11b-----11b-----11b-----119-----|
|11b-------------11b-------------|11b-----11b-----11b-----119-----|
|--------------------------------|----------------------------119-|
|--------------------------------|--------------------------------|
|--------------------------------|--------------------------------|

 |       |       |       |        |       |       |       |
|--------------------------------|--------------------------------|
|119-X-X-X-X-119-X-X-X-X-119-----|119-X-X-X-X-119-X-X-X-X-119-----|
|119-X-X-X-X-119-X-X-X-X-119-----|119-X-X-X-X-119-X-X-X-X-119-----|
|----------------------------119-|----------------------------119-|
|--------------------------------|--------------------------------|
|--------------------------------|--------------------------------|

OUTRO|     |       |
|--------------------------------|
|--------------------------------|
|----------------6---6---4---4---|
|--------------------------------|
|--------------------------------|
|--------------------------------|

 |       |       |       |        |       |       |       |
|--------------------------------|--------------------------------|
|--------------------------------|--------------------------------|
|--------------------------------|--------------------------------|
|6---6---4---4---2---2-----------|--------------------------------|
|------------------------4---4---|2---2---------------------------|
|--------------------------------|--------4---4---2---2---0---0---|

 |       |       |       |        |       |       |       |
|--------------------------------|--------------------------------|
|--------------------------------|--------------------------------|
|--------9---------------------11|--------7---------------------9-|
|9h--11------11--9-----------11--|7h--9-------9---7-----------9---|
|--------------------10--9-------|--------------------8---7-------|
|--------------------------------|--------------------------------|

 |       |       |       |        |       |       |       |
|--------------------------------|--------------------------------|
|--------5---------------------7-|--------4---------------4-4-----|
|5h--7-------7---5-----------7---|4h--6-------6---4-------3-3-----|
|--------------------6---5-------|--------------------5---4-4-----|
|--------------------------------|--------------------------------|

 |       |       |       |
|--------------------------------|
|7-7-----1010----1313----1616----|
|7-7-----1010----1313----1616----|
|6-6-----9-9-----1212----1515----|
|7-7-----1010----1313----1616----|
|--------------------------------|

Imprimer cette page

Créée avec TablEdit convertie HTML.