Fun & Games

chuck mangione - "Fun & Games"


Tabledited by Deurf

Riff intro Bass mais aussi théme :

 | F     |       |       |        |       |       |       |
|--------------------------------|--------------------------------|
|--------------------------------|--------------------------------|
|--------------------------------|--------------------------------|
|------------------5---------7---|--------7-----5---5-------------|
|------------5-8-----8-----------|--------------------8-----------|
|--------5-8---------------------|--------------------------------|

 | F     |       |       |        |       |       |       |
|--------------------------------|--------------------------------|
|--------------------------------|--------------------------------|
|--------------------------------|--------------------------------|
|------------------5-------------|7-5---5-------------------------|
|------------5-8-----8-----------|----8-----5-8-------------------|
|--------5-8---------------------|--------------------------------|

 | F     |       |       |        |       |       |       |
|--------------------------------|--------------------------------|
|--------------------------------|--------------------------------|
|--------------------------------|--------------------------------|
|--------------------8---9---10--|--------8---7-7-----------------|
|--------5-8-8-8-----------------|----------------8-8-1010----8---|
|8---8-8-------------------------|--------------------------10----|

 | F     |       |       |        |       |       |       |
|--------------------------------|--------------------------------|
|--------------------------------|--------------------------------|
|--------------------------------|--------------------------------|
|----------------------------7-5-|7-5---5-------------------------|
|------5---8---5-8-8-5-----------|----8-----5-8-------------------|
|----------------------8---------|--------------------------------|



Imprimer cette page

Le Deurf 12/04/2005