Futurama
Neil larsen - "High Gear"


Ceci est mon interpretation personelle du théme principal de ce fabuleux morceau, n'hesitez pas à me corriger si vous voyez une erreur..
Une ecoute attentive de l'original aidera pour placer tout ça correctement dans le tempo.
Enjoy !


Intro
 |       |       |       |        |  |   |   |   |   |   |   |    
|--------------------------------|-------------|--------------------|
|--------------------------------|-------------|--------------------|
|--------------------------------|-------------|--------------------|
|--------------------------------|-------------|--------------------|
|----------------------------3-4-|5------------|--------------------|
|2-------------------------------|----------10>|-3--------------3--4|

 |       |       |       |        |       |       |       |
|--------------------------------|--------------------------------|
|--------------------------------|--------------------------------|
|--------------------------------|--------------------------------|
|--------------------------------|--------------------------------|
|--------------------------------|--------------------------------|
|6---------------------------4--6|8---------------------------6--8|

                         Thème-------->
 |       |       |       |        |       |       |       |
|--------------------------------|--------------------------------|
|------------------------11-9-8--|8-----------------------8--11---|
|------------------------------10|--------------------------------|
|--------------------------------|--------------------------------|
|--------------------------------|--------------------------------|
|9----------8--9-11--------------|--------------------------------|

 |       |       |       |        |       |       |       |
|----------------------------11--|13--15--11--13------------------|
|9h11p9-8------------------------|------------------------11>-13>-|
|--------10----------------------|-------------------10-----------|
|--------------------------------|--------------------------------|
|--------------------------------|--------------------------------|
|--------------------------------|--------------------------------|

 |       |       |       |        |       |       |       |
|--------------------------------|--------------------------------|
|11----------------------11-9-8--|8-----------------------8--11---|
|-------------------10>12------10|--------------------------------|
|--------------------------------|--------------------------------|
|--------------------------------|--------------------------------|
|--------------------------------|--------------------------------|

 |       |       |       |        |       |       |       |
|----------------------------11--|13--15--11--13------------------|
|9h11p9-8------------------------|------------------------11>-13>-|
|--------10----------------------|--------------------10----------|
|--------------------------------|--------------------------------|
|--------------------------------|--------------------------------|
|--------------------------------|--------------------------------|

 |       |       |       |        |       |       |       |
|----------------------------8---|11--------------------9-11-9-8--|
|11--------------11--9---11------|-------------------11---------11|
|--------------------------------|--------------------------------|
|--------------------------------|--------------------------------|
|--------------------------------|--------------------------------|
|--------------------------------|--------------------------------|

 |       |       |       |        |       |       |       |
|8-----------------------9-8-----|--------------------------------|
|--------------------9-11----11-9|------------------------8-9-9-11|
|--------------------------------|8>10>8----------------8---------|
|--------------------------------|--------------------------------|
|--------------------------------|--------------------------------|
|--------------------------------|--------------------------------|

 |       |       |       |        |       |       |       |
|----------------------------8---|11--------------------9-11-9-8--|
|--------------------9---11------|-------------------11---------11|
>10------------------------------|--------------------------------|
|--------------------------------|--------------------------------|
|--------------------------------|--------------------------------|
|--------------------------------|--------------------------------|

 |       |       |       |        |       |       |       |
|8-----------------------9-8-----|--------------------------------|
|--------------------9-11----11-9|------------------------8-9-9-11|
|--------------------------------|8>10>8----------------8---------|
|--------------------------------|--------------------------------|
|--------------------------------|--------------------------------|
|--------------------------------|--------------------------------|
                         Thème bis------->
 |       |       |       |        |       |       |       |
|--------------------------------|--------------------------------|
|------------------------11-9-8--|8-----------------------8--11---|
>10-----------------10>12------10|--------------------------------|
|--------------------------------|--------------------------------|
|--------------------------------|--------------------------------|
|--------------------------------|--------------------------------|

SOLO (suite)

Imprimer cette page

Tablatures faites à la mano par Derf.. Sept 2009