Give it All You Got

Chuck Mangione - "Feels Good"


Tabledited by Deurf

Riff Intro (Bbm)
 |       |       |       |         |       |       |       |
|---------------------------------|-------------------------------|
|2-------6-------9-------13--14-14|13-14-13-14--14-----16----14-14|
|3-------6-------10------13--15-15|13-15-13-15--15-----17----15-15|
|---------------------------------|-------------------------------|
|---------------------------------|-------------------------------|
|---------------------------------|-------------------------------|

 |       |       |       |        |       |       |       |
|--------------------------------|--------------------------------|
|13-14-13-14--14-----16-----14-14|13-14-13-14--14-----16-----14-14|
|13-15-13-15--15-----17-----15-15|13-15-13-15--15-----17-----15-15|
|--------------------------------|--------------------------------|
|--------------------------------|--------------------------------|
|--------------------------------|--------------------------------|

 |       |       |       |        |       |       |       |
|--------------------------------|--------------------------------|
|13-14-13-14--14-----16-----14-14|13-14-13-14---------------------|
|13-15-13-15--15-----17-----15-15|13-15-13-15---------------------|
|--------------------------------|--------------------------------|
|--------------------------------|--------------------------------|
|--------------------------------|--------------------------------|


Théme 
 | Bbm   |       |       |        | Ebm9  |       |       |
|--------------------------------|--------------------------------|
|--------------------------------|6---6---------------------------|
|--------------------------5-6-8-|------------------------------8-|
|----------------------6-8-------|--6-----------------------------|
|------------------8-9-----------|--------------------------------|
|--------------------------------|--------------------------------|

 | Ebm9  |       |       |        | Ebm9  |       |       |
|--------------------------------|--------------------------------|
|--------------------------------|--------------------------------|
|----8-------------------------6-|----6-------------------------5-|
|--------------------------------|--------------------------------|
|--9-----------------------------|--8-----------------------------|
|--------------------------------|--------------------------------|

 | Ebm6/9| Ebm9   |Fm7-Bbm|        |       |       |       |
|--------------------------------|-----------------------------------|
|--------------------------------|------------9-13-9-13-9-13-9-11-9-9|
|----5---------------------------|----------10-----------------------|
|--------------------------------|------8-11-------------------------|
|--6-----------------------------|--8-9------------------------------|
|--------------------------------|-----------------------------------|

 |       |       |       |        |       |       |       |
|--------------------------------|--------------------------------|
|9--->--6------------------------|--------------------------------|
|--------------------------------|------------------------5-8-6-5-|
|--------------------------------|--------------------------------|
|--------------------------------|--------------------------------|
|--------------------------------|--------------------------------|

 |       |       |       |        |       |       |       |
|--------------------------------|--------------------------------|
|--------------------------------|------9-------------------------|
|6-----5-------------------------|--------------------5-----------|
|------------8-------------------|8-------------------------------|
|--------------------------------|--------------------------------|
|--------------------------------|--------------------------------|

 |       |       |       |         |       |       |       |
|---------------------------------|-------------------------------|
|2-------6-------9-------13--14-14|13-14-13-14--14-----16----14-14|
|3-------6-------10------13--15-15|13-15-13-15--15-----17----15-15|
|---------------------------------|-------------------------------|
|---------------------------------|-------------------------------|
|---------------------------------|-------------------------------|

 |       |       |       |        |       |       |       |
|--------------------------------|--------------------------------|
|--------6-8---6---8---8---------|--------------------------------|
|8-6-5-6-----8-------------------|--------------------------------|
|--------------------------------|--------------------------------|
|--------------------------------|--------------------------------|
|--------------------------------|--------------------------------|



Imprimer cette page

Le Deurf 12/04/2005