Heros with 1000 eyes

"Candyman"


Tabledited by Deurf
PART A - Riff principal
 |       |       |       |        |       |       |       |
|--------------------------------|--------------------------------|
|--------------------------------|--------------------------------|
|--------------------------------|--------------------------------|
|------2---4-5-------4-5-----4-5-|------2-----4-5-----4-5---------|
|----2-----------3-------5-------|----2-----------3-----------3-2-|
|0-------------------------------|0-----------------------3-------|


PART B - Refrain
 |       |       |       |        |       |       |       |
|--------------------------------|--------------------------------|
|8-------------------------------|7-------------------------------|
|9-------------------------------|9-------------------------------|
|9-------------------------------|9-------------------------------|
|7-------------------------------|7-------------------------------|
|0-------------------------------|0-------------------------------|

 |       |       |       |        |       |       |       |
|--------------------------------|--------------------------------|
|7-------------------------------|5-------------------------------|
|7-------------------------------|5-------------------------------|
|7-------------------------------|7-------------------------------|
|7-------------------------------|7-------------------------------|
|0-------------------------------|0-------------------------------|

 |       |       |       |        |       |       |       |
|--------------------------------|--------------------------------|
|5-------------------------------|3-------------------------------|
|4-------------------------------|4-------------------------------|
|5-------------------------------|4-------------------------------|
|2-------------------------------|2-------------------------------|
|0-------------------------------|--------------------------------|

1er fois 
 |       |       |       |        |       |       |       |
|--------------------------------|--------------------------------|
|3-----------2---2---------------|--------------------------------|
|2-----------2---2-----------7---|--------------------------------|
|2-----------2---2---4/--7-----7/|9---------PART B----------------|
|0-----------0---0---------------|--------------------------------|
|--------------------------------|--------------------------------|

2ieme fois 
 |       |       |       |        |       |       |       |
|--------------------------------|--------------------------------|
|--------------------------------|--------------------------------|
|--------------------------------|--------------------------------|
|------------4-------5-------7---|--------PART A------------------|
|5-----------2-------3-------5---|--------------------------------|
|3-------------------------------|--------------------------------|

3ieme fois 
 |       |       |       |        |       |       |       |
|--------------------------------|--------------------------------|
|--------------------------------|--------------------------------|
|--------------------------------|--------------------------------|
|12----------11------9-------7---|12----------11------9-------7---|
|--------------------------------|--------------------------------|
|--------------------------------|--------------------------------|

PART C
 |       |       |       |        |       |       |       |
|--------------------------------|2-------------------------------|
|--------------------------------|3---------------------3-3-------|
|--------------------------------|2-------------------0-----------|
|--------------------------------|0---------------4---------------|
|--------------------7---7---7---|--------------------------------|
|--------------------5---5---5---|--------------------------------|

 |       |       |       |        |       |       |       |
|--------------------------------|--------------------------------|
|------3-3-----------------------|--------------------------------|
|----2---------------------------|------7-7-------------7-7-------|
|--------------------------------|----7---------------7-----------|
|----------------5---------------|--------------------------------|
|2---------------3---------------|5---------------7---------------|

 |       |       |       |        |       |       |       |
|--------------------------------|2-------------------------------|
|--------------------------------|3---------------------3-3-------|
|5-------------------------------|2-------------------0-----------|
|3-------------------------------|0---------------4---------------|
|--------------------7---7---7---|--------------------------------|
|--------------------5---5---5---|--------------------------------|

 |       |       |       |        |       |       |       |
|--------------------------------|--------------------------------|
|------3-3-----------------------|--------------------------------|
|----2---------------------------|------7-7-------------7-7-------|
|--------------------------------|----7---------------7-----------|
|----------------5---------------|--------------------------------|
|2---------------3---------------|5---------------7---------------|

 |       |       |       |        |       |       |       |
|--------------------------------|--------------------------------|
|----------------3---------------|----------------3---------------|
|----0-------0---2---------------|----0-------0---2---------------|
|--2-------0-----0---------------|--2-------0-----0---------------|
|3-------2-----------------------|3-------2-----------------------|
|--------------------------------|--------------------------------|

 |       |       |       |        |       |       |       |
|--------------------------------|--------------------------------|
|----------------3---------------|----------------3---------------|
|----0-------0---2---------------|----0-------0---2---------------|
|--2-------0-----0---------------|--2-------0-----0---------------|
|3-------2-----------------------|3-------2-----------------------|
|--------------------------------|--------------------------------|

Imprimer cette page