Intensatez
"C.Jobim"


un doigté assez simple pour cette bossa sympatoche, n'hesitez pas à me corriger si vous voyez une erreur..
Une ecoute attentive de l'original aidera pour placer tout ça correctement dans le temps et pour la structure.
Enjoy !

Bm                               
 |       |       |       |             
|--------------------------------|
|--------------------------------|
|4-------------------------------|
|4-------------------------------|
|5-------------------------------|
|7-------------------------------|

D7/A
 |       |       |       |        |       |       |       |        
|--------------------------------|--------------------------------|
|--------------------------------|--------------------------------|
|7-------------------------------|--------------------------------|
|--------------------------------|6---7-------9-------10------11--|
|--------------------------------|--------------------------------|
|--------------------------------|--------------------------------|
C#7/G# 
 |       |       |       |        |       |       |       |        
|--------------------------------|--------------------------------|
|--------------------------------|--------------------------------|
|--------------------------------|--------------------------------|
|--------------------------------|----------------------------9---|
|--------------------------------|8---9-------10------11----------|
|--------------------------------|--------------------------------|
G6 
 |       |       |       |        |       |       |       |        
|--------------------------------|--------------------------------|
|--------------------------------|--------------------------------|
|--------------------------------|--------------------------------|
|--------------------------------|--------------------7-------9---|
|--------------------------------|7---9-------10------------------|
|--------------------------------|--------------------------------|
Bm7 
 |       |       |       |        |       |       |       |        
|--------------------------------|--------------------------------|
|--------------------------------|--------------------------------|
|--------------------------------|7-------7-----------------------|
|----------------------------9---|----9-------9-------9-----------|
|--------------------------------|--------------------------------|
|--------------------------------|--------------------------------|

PART A
Bm7(2)
 |       |       |       |        |       |       |       |        
|--------------------------------|--------------------------------|
|7-------------------------------|--------8-------7---8-------7---|
|--------------------------------|--------------------------------|
|--------------------------------|--------------------------------|
|--------------------------------|--------------------------------|
|--------------------------------|--------------------------------|
Ebm7/Bb ou F#/A# 
 |       |       |       |        |       |       |       |        
|--------------------------------|--------------------------------|
|(7)-----------------------------|--------8-------7---8-------7---|
|--------------------------------|--------------------------------|
|--------------------------------|--------------------------------|
|--------------------------------|--------------------------------|
|--------------------------------|--------------------------------|
 Am6
 |       |       |       |        |       |       |       |        
|--------------------------------|--------------------------------|
|(7)-------------6-------7-------|10----------9-----------8---7---|
|--------------------------------|--------------------------------|
|--------------------------------|--------------------------------|
|--------------------------------|--------------------------------|
|--------------------------------|--------------------------------|
E/G# (ou Dbm7/Ab) 
 |       |       |       |             
|--------------------------------|
|7-------------------------------|
|------------9-------------------|
|--------------------------------|
|--------------------------------|
|--------------------------------|

                                 G6(2)
 |       |       |       |        |       |       |       |        
|--------------------------------|--------------------------------|
|--------------------------------|5-------------------------------|
|--------------------------------|--------------------------------|
|--------------------------------|--------------------------------|
|--------------------------------|--------------------------------|
|--------------------------------|--------------------------------|
                                  CM7
 |       |       |       |        |       |       |       |        
|--------------------------------|--------------------------------|
|--------5-------7---5-------7---|(7)-----------------------------|
|--------------------------------|--------------------------------|
|--------------------------------|--------------------------------|
|--------------------------------|--------------------------------|
|--------------------------------|--------------------------------|

                                 C#m75b 
 |       |       |       |        |       |       |       |        
|--------------------------------|--------------------------------|
|--------5-------7---5-------7---|(7)-------------4-------5-------|
|--------------------------------|--------------------------------|
|--------------------------------|--------------------------------|
|--------------------------------|--------------------------------|
|--------------------------------|--------------------------------|
F#75+                            Bm7M              Bm7
 |       |       |       |                       
|--------------------------------|---------------|----------------||
|8-----------7------------6--5---|5--------------|----------------||
|--------------------------------|------7--------|----------------||
|--------------------------------|---------------|----------------||
|--------------------------------|---------------|----------------||
|--------------------------------|---------------|----------------||

PART B

D7/A                                     
 |       |       |       |        |       |       |       |        
|--------------------------------|--------------------------------|
|3-------------------------------|------------5---3-------5---3---|
|--------------------------------|--------------------------------|
|--------------------------------|--------------------------------|
|--------------------------------|--------------------------------|
|--------------------------------|--------------------------------|

Abdim 
 |       |       |       |        |       |       |       |        
|--------------------------------|--------------------------------|
|(3)-----------------------------|------------5---3----5------7---|
|--------------------------------|--------------------------------|
|--------------------------------|--------------------------------|
|--------------------------------|--------------------------------|
|--------------------------------|--------------------------------|

GM7                               Em6
 |       |       |       |        |       |       |       |        
|--------------------------------|--------------------------------|
|(7)-------------------------3---|------------------------3-------|
|--------------------------------|4-----------6---4----6----------|
|--------------------------------|--------------------------------|
|--------------------------------|--------------------------------|
|--------------------------------|--------------------------------|

Bm7                               Bm7
 |       |       |       |        |       |       |       |        
|--------------------------------|--------------------------------|
|(3)--------3--------------------|--------------------------------|
|--------------------------------|--------------------------------|
|--------------------------------|--------------------------------|
|--------------------------------|--------------------------------|
|--------------------------------|--------------------------------|

D7/A                              
 |       |       |       |        |       |       |       |        
|--------------------------------|--------------------------------|
|3-------------------------------|--------5---------------3---5---|
|--------------------------------|--------------------------------|
|--------------------------------|--------------------------------|
|--------------------------------|--------------------------------|
|--------------------------------|--------------------------------|

C#7/G#
 |       |       |       |        |       |       |       |        
|--------------------------------|--------------------------------|
|2-------------------------------|--------------------------------|
|--------------------------------|--------------------------------|
|----------------------------ETC...-------------------------------|
|--------------------------------|--------------------------------|
|--------------------------------|--------------------------------|


Em6/G | F#7/5+ | Bm7 |    |    |    |   ---> PART A/B.

Accords :
-------
D7/A     5X453X
C#7/G#   4X342X
G6       3X243X   et 3X245X
Bm7      X2423X   et 7X777X
Ebm7/Bb  6X467X
Am6      5X455X
E/G#     4X245X
CM7      X3545X
C#dim    X4545X
F#75+    2X233X
Bm7M     X2433X
Abdim    4X343X
Em6      0X542X
GM7      3X443X
Em6/G    3X242X 
 

Imprimer cette page

Tablatures created with TablEdit exported HTML. Le Derf - Janvier 2012.