Gorato de Ipanema
"C.Jobim"


Girl of Ipanema :
un doigté assez simple pour ce superbe théme, n'hesitez pas à me corriger si vous voyez une erreur..
Une ecoute attentive de l'original aidera pour placer tout ça correctement dans le temps et pour la structure.
Enjoy !


Part A

 Db6/9
 |       |       |       |        |       |       |       |        
|--------------------------------|--------------------------------|
|4-------4-----------------------|4-------4-------------------4---|
|------------5---5-------5---3---|------------5---5---5---3-------|
|--------------------------------|--------------------------------|
|--------------------------------|--------------------------------|
|--------------------------------|--------------------------------|

Eb9 
 |       |       |       |        |       |       |       |        
|--------------------------------|--------------------------------|
|----4---------------------------|4-------4-----------------------|
|------------5---5-------5---3---|------------5---5---5---3---6---|
|--------------------------------|--------------------------------|
|--------------------------------|--------------------------------|
|--------------------------------|--------------------------------|

Ebm9                              D9  
 |       |       |       |        |       |       |       |        
|--------------------------------|--------------------------------|
|--------------------------------|--------------------------------|
|--------6-------------------3---|------3-----------5-----5-------|
|--------------------------------|------------6-----------------6-|
|--------------------------------|--------------------------------|
|--------------------------------|--------------------------------|

Db6/9                              D9
 |       |       |       |        |       |       |       |        
|--------------------------------|--------------------------------|
|--------------------------------|--------------------------------|
|--------------------------------|--------------------------------|
|6---6---4---6-------------------|--------------------------------|
|--------------------------------|--------------------------------|
|--------------------------------|--------------------------------|

 Db6/9 
 |       |       |       |        |       |       |       |        
|--------------------------------|--------------------------------|
|4-------4-----------------------|4-------4-------------------4---|
|------------5---5-------5---3---|------------5---5---5---3-------|
|--------------------------------|--------------------------------|
|--------------------------------|--------------------------------|
|--------------------------------|--------------------------------|

Eb9 
 |       |       |       |        |       |       |       |        
|--------------------------------|--------------------------------|
|----4---------------------------|4-------4-----------------------|
|------------5---5-------5---3---|------------5---5---5---3---6---|
|--------------------------------|--------------------------------|
|--------------------------------|--------------------------------|
|--------------------------------|--------------------------------|

Ebm9                              D9  
 |       |       |       |        |       |       |       |        
|--------------------------------|--------------------------------|
|--------------------------------|--------------------------------|
|----6---------------3---3---3---|----5-----------5---------------|
|--------------------------------|6-----------------------6---6---|
|--------------------------------|--------------------------------|
|--------------------------------|--------------------------------|

Db6/9                              Db6/9 
 |       |       |       |        |       |       |       |        
|--------------------------------|--------------------------------|
|--------------------------------|--------------------------------|
|--------------------------------|--------------------------------|
|6-------4---6-------------------|--------------------------------|
|--------------------------------|--------------------------------|
|--------------------------------|--------------------------------|

Part B
DM7
 |       |       |       |        |       |       |       |        
|--------------------------------|--------------------------------|
|--------------------------------|--------------------------------|
|6-------------------------------|------------7--6---4---6----4---|
|--------------------------------|--------------------------------|
|--------------------------------|--------------------------------|
|--------------------------------|--------------------------------|

G13
 |       |       |       |        |       |       |       |        
|--------------------------------|--------------------------------|
|--------------------------------|--------------------------------|
|------------4-------------------|--------------------------------|
|7-------------------------------|--------------------------------|
|--------------------------------|--------------------------------|
|--------------------------------|--------------------------------|

Dm9
 |       |       |       |        |       |       |       |        
|--------------------------------|--------------------------------|
|--------------------------------|--------------------------------|
|9-------------------------------|------------10--9---7---9---7---|
|--------------------------------|--------------------------------|
|--------------------------------|--------------------------------|
|--------------------------------|--------------------------------|

Bb13
 |       |       |       |        |       |       |       |        
|--------------------------------|--------------------------------|
|--------------------------------|--------------------------------|
|------------7-------------------|--------------------------------|
|10------------------------------|--------------------------------|
|--------------------------------|--------------------------------|
|--------------------------------|--------------------------------|

Ebm9
 |       |       |       |        |       |       |       |        
|--------------------------------|--------------------------------|
|--------------------------------|--------------------------------|
|10------------------------------|--------------11-10--8-10--8----|
|--------------------------------|--------------------------------|
|--------------------------------|--------------------------------|
|--------------------------------|--------------------------------|


B13
 |       |       |       |        |       |       |       |        
|--------------------------------|--------------------------------|
|--------------------------------|----------------6-------7-------|
|------------8-------------------|--------------------------------|
|11------------------------------|--------------------------------|
|--------------------------------|--------------------------------|
|--------------------------------|--------------------------------|

Fm7                             Bb7            
 |       |       |       |        |       |       |       |        
|--------------------------------|--------------------------------|
|9-------------------------------|----------------6---------------|
|------------5---6---8-----------|9-------------------------------|
|----6---8-----------------------|--------------------------------|
|--------------------------------|--------------------------------|
|--------------------------------|--------------------------------|

Ebm7                             Ab7 
 |       |       |       |        |       |       |       |        
|--------------------------------|--------------------------------|
|7-------------------------------|--------------------------------|
|--------------------5---6-------|7---------------8---------------|
|----4---6-------8---------------|--------------------------------|
|--------------------------------|--------------------------------|
|--------------------------------|--------------------------------|




Fin théme part A 

 |       |       |       |        |       |       |       |        
|--------------------------------|--------------------------------|
|4-------4-----------------------|4-------4-------------------4---|
|------------5---5-------5---3---|------------5---5---5---3-------|
|--------------------------------|--------------------------------|
|--------------------------------|--------------------------------|
|--------------------------------|--------------------------------|
 
 |       |       |       |        |       |       |       |        
|--------------------------------|--------------------------------|
|----4---------------------------|4-------4-------------------6---|
|------------5---5-------5---3---|------------5---5---5---3-------|
|--------------------------------|--------------------------------|
|--------------------------------|--------------------------------|
|--------------------------------|--------------------------------|
 
 |       |       |       |        |       |       |       |        
|--------------------------------|4---4---------------------------|
|----6---------------------------|--------------------------------|
|------------6---6---6---3-------|--------5-------5---5---3-------|
|--------------------------------|--------------------------------|
|--------------------------------|--------------------------------|
|--------------------------------|--------------------------------|
Db6/9                              D9
 |       |       |       |        |       |       |       |        
|--------------------------------|--------------------------------|
|--------------------------------|--------------------------------|
|5-------------------------------|------------5-------5---5---3---|
|--------------------------------|--------------------------------|
|--------------------------------|--------------------------------|
|--------------------------------|--------------------------------|
Db6/9                              D9 
 |       |       |       |        |       |       |       |        
|--------------------------------|--------------------------------|
|--------------------------------|--------------------------------|
|5-------------------------------|------------5-------5---5---3---|
|--------------------------------|--------------------------------|
|--------------------------------|--------------------------------|
|--------------------------------|--------------------------------|
Db6/9                              D9
 |       |       |       |        |       |       |       |        
|--------------------------------|--------------------------------|
|--------------------------------|--------------------------------|
|5-------------------------------|--------------------------------|
|--------------------------------|--------------------------------|
|--------------------------------|--------------------------------|
|--------------------------------|--------------------------------|
 

Imprimer cette page

Tablatures created with TablEdit exported HTML. Le Derf - Janvier 2012.