Little Shoes
Mike Stern

"Upside Downside"
Théme
 |       |       |       |        |       |       |       |
|--------------------------------|--------------------------------|
|------------3---4---3-----3-----|----3---4-----3-----------------|
|--------3-5---3-------5-----3---|--5---3---------5---7---5-------|
|------3-------------------------|--------------------------------|
|--------------------------------|--------------------------------|
|--------------------------------|--------------------------------|

 |       |       |       |        |       |       |       |
|--------------------------------|--------------------------------|
|------------3---4-----6---------|----3---4-----6-----------------|
|--------3-5---3---------5-5-3---|--5---3---------5-5-3---5---3-3-|
|------3-------------------------|----------------------5---5-----|
|--------------------------------|--------------------------------|
|--------------------------------|--------------------------------|

 |       |       |       |        |       |       |       |
|--------------------------------|--------------------------------|
|------------3---4---3-----3-----|----3---4-----3-3---------------|
|--------3-5---3-------5-----3---|--5---3-------------5-----------|
|------3-------------------------|--------------------------------|
|--------------------------------|--------------------------------|
|--------------------------------|--------------------------------|

 |       |       |       |        |       |       |       |
|--------------------------------|----------------3-3-------------|
|------------3---4-----6---------|----3---4-----6-----6-----------|
|--------3-5---3---------5-5-3---|--5---3---------------6-5---5-3-|
|------3-------------------------|--------------------------5-----|
|--------------------------------|--------------------------------|
|--------------------------------|--------------------------------|

 |       |       |       |        |       |       |       |
|--------------------------------|--------------------------------|
|------------3---4---3-----3-----|----3---4-----3-3---------------|
|--------3-5---3-------5-----3---|--5---3-------------5-----------|
|5-----3-------------------------|--------------------------------|
|--------------------------------|--------------------------------|
|--------------------------------|--------------------------------|

 |       |       |       |        |       |       |       |
|--------------------------------|--------------------------------|
|------------3---4-----6---------|----3---4-------4-----6-3h4p3---|
|--------3-5---3---------5-5-3---|--5---3-----------------------5-|
|------3-------------------------|--------------------------------|
|--------------------------------|--------------------------------|
|--------------------------------|--------------------------------|

 |       |       |       |        |       |       |       |
|--------------------------------|--------------------------------|
|--------4-3---6-3-----4---------|--------4-3---6-3---------------|
|------------5-----------5-5-3---|------3-----5-------------------|
|----3---------------------------|----3---------------------------|
|--------------------------------|--------------------------------|
|--------------------------------|--------------------------------|

 |       |       |       |        |       |       |       |
|--------------------------------|--------------------------------|
|------------7---8-----107-----10|------------7---8-----106-----10|
|--------7-9---7-----------------|7-------7-9---7-----------------|
|--------------------------------|--------------------------------|
|--------------------------------|--------------------------------|
|--------------------------------|--------------------------------|

2ieme partie du théme !! Each bar represents 1 mesure only !! | | | | |----------------------------------------------------------------| |----------------------------------------------------------------| |7---------------------------------------------------------------| |----------------------------------------------------------------| |----------------------------------------------------------------| |----------------------------------------------------------------| | | | | |----------------------------------------------------------------| |----------------------------------------------------------------| |7---------------------------------------------------------------| |----------------------------------------------------------------| |----------------------------------------------------------------| |----------------------------------------------------------------| | | | | |----------------------------------------------------------------| |----------------------------------------------------------8-9---| |--------------------------------------------------7-9---10------| |--------------------------------------------9---10--------------| |------------------------------------8---1011--------------------| |----------------------------------------------------------------| | | | | |----------------------------------------------------------------| |11------------------------------------------11--11------11------| |------------10--------------------------------------------------| |----------------------------12----------------------------------| |----------------------------------------------------------------| |----------------------------------------------------------------| | | | | |----------------------------------------------------------------| |--------------------------------------------11--11------11------| |------------10--------------------------------------------------| |----------------------------12----------------------------------| |----------------------------------------------------------------| |----------------------------------------------------------------| | | | | |----------------------------------------------------------------| |11------------------------------------------11--13------11------| |------------10--------------------------------------------------| |----------------------------12----------------------------------| |----------------------------------------------------------------| |----------------------------------------------------------------| | | | | |----------------------------------------------------------------| |--------------------------------------------11--13------12------| |------------10--------------------------------------------------| |----------------------------12----------------------------------| |----------------------------------------------------------------| |----------------------------------------------------------------| | | | | |----------------------------------------------------------------| |--------------------------------------------12--13------12------| |------------10--------------------------------------------------| |----------------------------12----------------------------------| |----------------------------------------------------------------| |----------------------------------------------------------------| | | | | |----------------------------10----------------------------------| |12------------------------------------------13--11--10----------| |------------10------------------------------------------12--11--| |----------------------------------------------------------------| |----------------------------------------------------------------| |----------------------------------------------------------------| | | | | |----------------------------------------------------------------| |------------------------10------11----------13--10----------13--| |10------------------12------10----------------------------------| |----------------------------------------------------------------| |----------------------------------------------------------------| |----------------------------------------------------------------| | | | | |----------------------------------------------------------------| |------------------------10------11----------13--9-----------13--| |----------------10--12------10----------------------------------| |----------------------------------------------------------------| |----------------------------------------------------------------| |----------------------------------------------------------------| | | | | |----------------------------------------------------------------| |----------------------------------------------------------------| |10--------------------------------------------------------------| |----------------------------------------------------------------| |----------------------------------------------------------------| |----------------------------------------------------------------|

SOLO (suite)

Imprimer cette page

Created with TablEdit exported HTML.