Medieval Song
Lederf
Petit morceau tranquillou. Solo assez Lukatherien ..dans le fond.. Changements de tonalités obligatoire.. Enjoy !


Théme Intro  - Accoustic guitar or piano
Em               Eb5+9+         FM7 
 |               |               |               |               
|7-------------------------------5-------------------------------|
|8----10----8----7----8-----7----5-------------------------------|
|9---------------4---------------5-------------------------------|
|9---------------5---------------7-------------------------------|
|7---------------6---------------8-------------------------------|
|----------------------------------------------------------------|¦
Em               Eb5+9+         FM7                               ¦-> X2
 |               |               |               |                ¦
|7-------------------------------5-------------------------------|¦
|8----10----8----7----8-----7----5-------------------------------|
|9---------------4----9-----7----5-------------------------------|
|9---------------5---------------7-------------------------------|
|7---------------6---------------8-------------------------------|
|----------------------------------------------------------------|
Théme A
 E11     FM7     Eb5+9+  Em       E11     FM7     Eb5+9+  Em               
 |       |       |       |        |       |       |       |        
|--------------------------------|--------------------------------|
|7-----7-----8---7---------------|7-----7-----8---7----------7-8--|
|7---9---9-------4---9-7-9-------|7---9---9-----------9-7-9-------|
|7---------------5---------------|7-------------------------------|
|----------------6---------------|7-------------------------------|
|--------------------------------|--------------------------------|
 FM7     CM7     FM7     CM7     E11      Em
 |       |       |       |        |       |       |       |        
|----10--7-----------10--7-------|--------------------------------|
|10------8-10-8-10-------8-10-8--|7---8-7-------------------------|
|9-------9------9--------9-------|7--------9----------------------|
|10------10-----10-------10------|7-------------------------------|
|8--------------8----------------|7-------------------------------|
|--------------------------------|--------------------------------|
Théme B
 CM7             FM7             Em              CM7    
 |               |               |               |               
|7--------7--10---------------7----------------------------------|
|8----10---------10----8--10-----8-----7--8--10------------------|
|9---------------9---------------9-----------------BIS x3--------|
|10--------------10--------------9-------------------------------|
|----------------8---------------7-------------------------------|
|----------------------------------------------------------------|
 CM7             FM7             Em              E11    
 |               |               |               |               Em
|7--------7--10---------------7----------------------------------|---||
|8----10---------10----8--10-----8-----7--8--10--7---------7--8--|---||
|9---------------9---------------9---------------7-----9---------|9--||
|10--------------10--------------9---------------7---------------|---||
|----------------8---------------7---------------7---------------|---||
|----------------------------------------------------------------|---||


SOLO PART - Overdrive 100% + Delay
 Em9             
|--------------------|------------|--------------|-------------|
|--------------------|------------|--------------|-------------|
|--------------------|------------|--------------|-------------|
|--------------------|------------|--------------|-------------|
|--------------------|-12>14>12---|--10>9>10>9---|-------------|
|12------------------|------------|--------------|--12>10>12-->|

|-------------|------------------|---------------|-------------------|
|-------------|----------------8-|7---7-h8h10p7--|7-h8h10p7--7-h8h10p|
|----2(b)(b)--|-(b)(b-r)2----7---|---------------|-------------------|
|-------------|----------->7-----|---------------|-------------------|
|-------------|------------------|---------------|-------------------|
|7------------|------------------|---------------|-------------------|
 Gm9
|-------------13-----|--------------------------------------------|
|11--------11----13->|15--13-13--11p10h11-10(b)(r)-10-------------|
|------>12-----------|--------------------------------12----------|
|--------------------|-----------------------------------12-------|
|--------------------|--------------------------------------13-10h|
|--------------------|--------------------------------------------|

|--------------------------------|-----------11-12-11-14-11p12p14p|
|--------------------------------|----12-14-----------------------|
|-----------------------10-----11|-13-----------------------------|
|--------------10-11-12---12-13--|--------------------------------|
|12---10-12-13-------------------|--------------------------------|
|--------------------------------|--------------------------------|
 Em9          
|15--14h12-----------12------|--------------------------------|---|---|----|
|---------15(b)--------15-12-|-----12-12--15------------12-15-|---|---|----|
|----------------------------|14(b)-----------14(b)---14(b)---|---|--ETC..-|
|----------------------------|--------------------------------|---|---|----|
|----------------------------|--------------------------------|---|---|----|
|----------------------------|--------------------------------|---|---|----|
 Em9     
|-------|--------------------------------|----------------12--12-15-12-15-|
|-------|--------------------------------|12---12-15-12-15--15------------|
|-------|----------------12---12-14-12-14|--14----------------------------|
|-------|----12-14-12-14---14------------|--------------------------------|
|---13--|14------------------------------|--------------------------------|
|-------|--------------------------------|--------------------------------|
 Gm9                                  
|18-17-15h17p15------------------|-17(b)(r)-------------18--------|
|---------------18--15---18(b)---|----------18--15----------------|
|--------------------------------|-----------------17(b)----------|
|--------------------------------|--------------------------------|
|--------------------------------|--------------------------------|
|--------------------------------|--------------------------------|
 ^                                                                 Em9 
|17-18-17-15--------^------------|--------------------------------|----|
|------------18-16-15-16-15------|----^---------------------------|17--|
|---------------------------17-15|14-12-14-12--------->14---------|----|
|--------------------------------|------------15-13-12------------|----|
|--------------------------------|-------------------------17->19-|----|
|--------------------------------|--------------------------------|----|

Imprimer cette page

Créée par Le Derf 02/09/2009