Midnight Parade

larry carlton


TablEdited by Derf

Une écoute attentive de l'original est nécessaire pour rendre
toutes les finesses guitaristiques - bend, hammer, pull off, slide, etc..



 |       |       |       |        |       |       |       |
|--------------------------------|--------------------------------|
|------------------3-------------|--------------------------------|
|------3---5---5-------------3---|--------------------------------|
|--3-5-------------------5-------|--------------------------------|
|5-------------------------------|--------------------------------|
|--------------------------------|--------------------------------|

 |       |       |       |        |       |       |       |
|--------------------------------|--------------------------------|
|------------------3-------------|--------------------------------|
|------3---5---5-------------3---|2---------2---3-----------3---7-|
|--3-5-------------------5-------|--------4---------------5-------|
|5-------------------------------|--------------------------------|
|--------------------------------|--------------------------------|

 |       |       |       |        |       |       |       |
|--------------------------------|--------------------------------|
|--------------6-----------------|--------------------------------|
|----------7-------7-------------|--------------------------------|
|--------8-------------8-----10--|----8---------------------------|
|--------------------------------|--------------------------------|
|--------------------------------|--------------------------------|

 |       |       |       |        |       |       |       |
|--------------------------------|--------------------------------|
|--------------------------------|--------------------------3---6-|
|--------------------------------|------------------------3-------|
|--------------------------------|--------------------------------|
|--------------------------------|--------------------------------|
|--------------------------------|--------------------------------|

 |       |       |       |        |       |       |       |
|--------------------------------|--------------------------------|
|----------3---6-----------3---6-|----------3---6---3-------------|
|--------3---------------3-------|--------3-------------3-----5---|
|--------------------------------|--------------------------------|
|--------------------------------|--------------------------------|
|--------------------------------|--------------------------------|

 |       |       |       |        |       |       |       |
|--------------------------------|--------------------------------|
|--------------------------------|------------------------------18|
|----3---------------------------|--------------------------15----|
|--------------------------------|------------------------15------|
|--------------------------------|--------------------------------|
|--------------------------------|--------------------------------|

 |       |       |       |        |       |       |       |
|--------------------------------|--------------------------------|
|--------------18--------------18|--------------18--15------------|
|----------15--------------15----|----------15----------15--17----|
|--------15--------------15------|--------15----------------------|
|--------------------------------|--------------------------------|
|--------------------------------|--------------------------------|

 |       |       |       |
|--------------------------------|
|--15----------------------------|
|----15--------------------------|
|--------------------------------|
|--------------------------------|
|--------------------------------|


 |       |       |       |        |       |       |       |
|6-6-6-6-------------------------|6-6-6-6-------------------------|
|--------------------------------|--------------------------------|
|----------3---3---------3-------|----------3---3---5-6---3-------|
|--------------------5-3---------|--------------------------------|
|--------------------------------|--------------------------------|
|--------------------------------|--------------------------------|

 |       |       |       |        |       |       |       |
|6-6-6-6-------------------------|--------------------------------|
|--------------------------------|--------------------------------|
|----------3---3-------------3---|--------------------------------|
|--------------------6---4-6---6-|--------------------------------|
|--------------------------------|--------------------------------|
|--------------------------------|--------------------------------|

 |       |       |       |        |       |       |       |
|6-6-6-6-------------------------|6-6-6-6-------------------------|
|--------------------------------|--------------------------------|
|----------3---3---------3-------|----------3---3---5-6---5---3---|
|--------------------5-3---------|--------------------------------|
|--------------------------------|--------------------------------|
|--------------------------------|--------------------------------|

 |       |       |       |        |       |       |       |
|6-6-6-6-------------------------|--------------------------------|
|--------------------------------|--------------------------------|
|----------3---3-------------3---|----3-----------4---------------|
|--------------------6---4-6-----|6-------4-6-------------5-7-----|
|--------------------------------|--------------------------------|
|--------------------------------|--------------------------------|

 |       |    + 6| mesures a vide R1      |       |       |
|--------------------------------|--------------------------------|
|--------------------------------|------------------3-------------|
|5---------------6---------------|------3---5---5-------------3---|
|--------6-8---------------------|--3-5-------------------5-------|
|--------------------------------|5-------------------------------|
|--------------------------------|--------------------------------|

 |      +1 mesures a vide R1      |       |       |       |
|--------------------------------|--------------------------------|
|--------------------------------|------------------3-------------|
|--------------------------------|------3---5---5-------------3---|
|--------------------------------|--3-5-------------------5-------|
|--------------------------------|5-------------------------------|
|--------------------------------|--------------------------------|

 |       |       |       |        |       |       |       |
|--------------------------------|--------------------------------|
|--------------------------------|--------------6-----------------|
|2---------2---3-----------3---7-|----------7-------7-------------|
|--------4---------------5-------|--------8-------------8-----10--|
|--------------------------------|--------------------------------|
|--------------------------------|--------------------------------|

 |       |       |       |        |       |       |       |
|--------------------------------|--------------------------------|
|--------------------------------|--------------------------------|
|--------------------------------|--------------------------------|
|----8---------------------------|--------------------------------|
|--------------------------------|--------------------------------|
|--------------------------------|--------------------------------|

Solo
 |       |       |       |        |       |       |       |
|--------------------------------|--------------------------------|
|18--20--20------18--------------|--------------------------------|
|------------------15--1515------|15------15------1719--19191715--|
|----------------------------1715|----1715----1715--------------17|
|--------------------------------|--------------------------------|
|--------------------------------|--------------------------------|

 |       |       |       |        |       |       |       |
|--------------------------------|--------------------------8-10--|
|--------------------------------|--------------------------------|
|15------------------------------|--------------------------------|
|--------17--------------11------|11------------------------------|
|----------------------13--1310--|----101313----------------------|
|--------------------------------|--------------------------------|

 |       |       |       |        |       |       |       |
|10--6---6-9-6-6-6---------------|--------------------------------|
|------6-----------------9-------|--------------6-----------------|
|--------------------------8---8-|8-6-----7-8-9---8-6-------------|
|--------------------------------|------8---------------8-8-------|
|--------------------------------|----------------------------8-9-|
|--------------------------------|--------------------------------|

 |       |       |       |        |       |       |       |
|----------------------------6-6-|6-----------------------1313----|
|--------------6-9-6---6---------|--------------------------------|
|--------------------8---6-7-----|--------------------------------|
|5-8---8-8-----------------------|--------------------------------|
|--------------------------------|--------------------------------|
|--------------------------------|--------------------------------|

 |       |       |       |        |       |       |       |
|--------------------------------|------------------10--111112--13|
|11------11----1111--------------|------------111313--------------|
|------------10----10--------10--|--------------------------------|
|----------------------1313------|--------------------------------|
|--------------------------------|--------------------------------|
|--------------------------------|--------------------------------|

 |       |       |       |        |       |       |       |
|----------10------------------6-|6-6-------------9-9-8-6-------6-|
|13--11--11----1313--------------|----8---6---8-----------8-6-8---|
|------10------------------------|--------------------------------|
|--------------------------------|--------------------------------|
|--------------------------------|--------------------------------|
|--------------------------------|--------------------------------|

 |       |       |       |        |       |       |       |
|----6---6-------8---------------|--------6-------9---------------|
|----------9-6-------------------|------6---9-6-------------------|
|6-7-----------------------------|--------------------------------|
|--------------------------------|--------------------------------|
|--------------------------------|--------------------------------|
|--------------------------------|--------------------------------|

 |       |       |       |        |       |       |       |
|----------------9-10--1111------|11------119---------------------|
|--------119---------------------|--------------11119-------------|
|------------10------------------|--------------------109-8-------|
|--------------------------------|--------------------------118---|
|--------------------------------|--------------------------------|
|--------------------------------|--------------------------------|
|       |       |       |        |       |       |       |
|--------------------------------|--------------------------------|
|--------------------------------|----------------------------14--|
|----8-10------------------------|------------12------15--1314--14|
|118-----11--8-----8-8---11------|--------------121415--15--------|
|--------------8-10----10--108---|--------------------------------|
|--------------------------------|--------------------------------|

 |       |       |       |        |       |       |       |
|--------------------------------|--------------------------------|
|--------------------------------|--------------1113------1311----|
|15------13----------------------|------------10--------------12--|
|----------15131413------15------|8/--10--1112--------------------|
|------------------161316--1613--|--------------------------------|
|------------------------------15|--------------------------------|

 |       |       |       |        |       |       |       |
|--------------------------------|--------------------------------|
|11------13--------------1311----|11------11--------11----11------|
|------------------------------10|----------10--1313----------10--|
|--------------------------------|--------------------------------|
|--------------------------------|--------------------------------|
|--------------------------------|--------------------------------|

 |       |       |       |        |       |       |       |
|----------------------------11--|131211--------------------------|
|----11--13------13------13------|------14131211------------------|
|12------------------------------|--------------13----------------|
|--------------------------------|----------------1514131213151212|
|--------------------------------|--------------------------------|
|--------------------------------|--------------------------------|

 |       |       |       |        |       |       |       |
|--------------------------13----|181518181815--------------------|
|--------------------111315--15--|------------1815----------------|
|------------10----12------------|----------------181715--17--15--|
|10----101112--1213--------------|----------------------17--17----|
|--1013--------------------------|--------------------------------|
|--------------------------------|--------------------------------|

 |       |       |       |        |       |       |       |
|----18--------------------------|----1112131211------------------|
|18----181818--1818----------1113|13------------14119-------------|
|------------------------1012----|--------------------10--9-9-9-8-|
|--------------------------------|--------------------------------|
|--------------------------------|--------------------------------|
|--------------------------------|--------------------------------|

 |       |       |       |        |       |       |       |
|--------------------------------|--------------------------------|
|--------------------------------|--------------------------------|
|5-3-5---3-----------------------|--------------------------------|
|------5-------5-6-5-3-5---3-----|--------------------------------|
|------------------------6---6---|6-6-4---4-------3-3---3-----3/--|
|--------------------------------|------6---6---------6---3-6-----|

 |       |       |       |        |       |       |       |
|--------------------------------|----------------------129-------|
|--------------------------------|--------------------12----9-----|
|--------------------------------|------------------12--------9---|
|----8-8-8-------8---6-----------|------6-9-7-8-9-12------------11|
|5---------------------8-7-6-5---|5-8-7---------------------------|
|------------------------------6-|--------------------------------|

Imprimer cette page

Tablatures created by derf, with TablEdit exported HTML.