Never Walk Alone

Steve Lukather - "Candyman"


Tabledited by Deurf

 Am7     |       |       Dm7      Am7     |       |       |
|--------------------------------|--------------------------------|
|--------------------------------|--------------------------------|
|--------575---------7---7h9h7/5-|(5)---------------------------5-|
|------------7-5-------7-7---7-5-|(5)-------------------------5---|
|0---0-0---------7/9-------------|------------------------5h7-----|
|--------------------------------|--------------------------------|

 Am7     |       |       Dm7      Am7     |       |       |
|--------------------------------|----------------5---------------|
|------------------------7h8h7/5-|(5)-----------------------------|
|--------575---------7---7---7-5-|(5)---------7B----7b-5-------5b-|
|------------7-5-------7-------5-|------------------------7-5-----|
|0---0-0---------7/9-------------|--------------------------------|
|--------------------------------|--------------------------------|

 Am7     |       |       Dm7      Am7     |       |       |
|--------------------------------|--------------------------------|
|--------------------------------|--------7-----------------------|
|--------575---------7---7h9h7/5-|(5)-----7-----------------------|
|------------7-5-------7-7---7-5-|(5)-----------------------------|
|0---0-0---------7/9-------------|----------------------------0-3-|
|--------------------------------|------------------------0h3-----|

 Am7     |       |       Dm7      Am7     |       |       |
|--------------------------------|--------------------------------|
|------------------------7h8h7/5-|(5)-----7-----------------------|
|--------575---------7---7---7-5-|(5)-----7---------------------5-|
|------------7-5-------7-------5-|----------------------------5---|
|0---0-0---------7/9-------------|------------------------5h7-----|
|--------------------------------|--------------------------------|

Structure et Accords

Imprimer cette page