Nite Crawler

"larry carlton"


TablEdited by Deurf.
Une écoute attentive de l'original est nécessaire pour rendre toutes les finesses - bend, hammer, pull off, slide, etc..

INTRO
 |       |       |       |        | E7    |       |       |
|--------------------------------|--------------------------------|
|--------------------------------|--------------------------------|
|------------2--()-3-------------|4-------------------------------|
|------------4--()-5-------------|6-------------------------------|
|------------3--()-4-------------|5-------------------------------|
|--------------------------------|--------------------------------|

 |       |       |       |        |       |       |       |
|--------------------------------|--------------------------------|
|------------------5-----(5)-----|--------------------------------|
|(4)-------------6-----------4---|(4)-----------------------------|
|(6)-----------------------------|--------------------------------|
|(5)-----------------------------|--------------------------------|
|--------------------------------|--------------------------------|

 |       |       |       |        |       |       |       |
|--------------------------------|--------------------------------|
|--------------------------------|--------------------------------|
|(4)-------------2-3----()---4---|(4)-----------------------------|
|----------------4-5----()---6---|(6)-----------------------------|
|----------------3-4----()---5---|(5)-----------------------------|
|--------------------------------|--------------------------------|

 |       |       |       |        |       |       |       |
|--------------------------------|--------------------------------|
|------------------5-----(5)-----|--------------------------------|
|(4)-------------6-----------4---|(4)-----------------------------|
|(6)-----------------------------|--------------------------------|
|(5)-----------------------------|--------------------------------|
|--------------------------------|--------------------------------|

 |       |       |       |        | E7    |       |       |
|--------------------------------|--------------------------------|
|--------------------------------|--------------------------------|
|(4)-------------2-3-----(3)-4---|----11b---------119-----11--9---|
|----------------4-5-----(5)-6---|--------------------119---------|
|----------------3-4-----(4)-5---|--------------------------------|
|--------------------------------|--------------------------------|

 |       |       |       |        |       |       |       |
|--------------------------------|--------------------------------|
|--------------------------------|--------------------------------|
|(9)-----------------------------|------11b-----11----9-119-------|
|--------------------------------|----------------9-11------------|
|--------------------------------|--------------------------------|
|--------------------------------|--------------------------------|

1rst time ....................... 2nd time ........................
 |       |       |       |        |       |       |       |
|--------------------------------|--------------------------------|
|--------------------------------|--------------7-9-12--12()--9---|
|(9)-----------------------------|(9)---------------------------11|
|--------------------------------|--------------------------------|
|--------------------------------|--------------------------------|
|--------------------------------|--------------------------------|

 |       |       |       |        |       |       |       |
|--------------------------------|------------------------9-12----|
|----10b---------109-----10--9---|(9)-----------------------------|
|--------------------119---------|--------------------------------|
|--------------------------------|--------------------------------|
|--------------------------------|--------------------------------|
|--------------------------------|--------------------------------|

 |       |       |       |        |       |       |       |
|--------------------------------|------------------------9-12----|
|----10b-------10----9-109-------|(9)---------------------9-12----|
|----------------9-11------------|--------------------------------|
|--------------------------------|--------------------------------|
|--------------------------------|--------------------------------|
|--------------------------------|--------------------------------|

 |       |       |       |        |       |       |       |
|--------------------------------|--------------------------------|
|--------------------------------|--------------------------------|
|----11b---------119-----11--9---|(9)-----------------------------|
|--------------------119---------|------------11------------------|
|--------------------------------|--------------109---------------|
|--------------------------------|------------------129-12--------|

 |       |       |       |        |       |       |       |
|--------------------------------|--------------------------------|
|--------------------------------|--------------------------------|
|----11b-------11----9-119-------|(9)-----------------------------|
|----------------9-11------------|--------------------------------|
|--------------------------------|--------------------------------|
|--------------------------------|--------------------------------|

 | G/A   |       |       |        |       |       |       |
|--------------------------------|--------------------------------|
|----------------------------7---|(7)---------------------7-------|
|7---------------(7)-----7-------|--------------------8-------9---|
|--------------------9-----------|----------------9---------------|
|--------------------------------|--------------------------------|
|--------------------------------|--------------------------------|

 |       |       |       |        |       |       |       |
|--------------------------------|----------------------------7---|
|----------------------------7---|(7)-----------------------------|
|(9)-------------(9)-----8-------|----9---(9)---8---(8)-----------|
|--------------------9-----------|--------------------9---(9)-----|
|--------------------------------|--------------------------------|
|--------------------------------|--------------------------------|

PART B
 | E7    |       |       |        |       |       |       |
|--------------------------------|--------------------------------|
|----10b---------109-----10--9---|9-------------------------------|
|----11b---------119-119-11--9---|9-------------------------------|
|--------------------119---------|--------------------------------|
|--------------------------------|--------------------------------|
|--------------------------------|--------------------------------|

 |       |       |       |        |       |       |       |
|--------------------------------|--------------------------------|
|----10b-------10----9-109-------|9-------------------------------|
|----11b-------119-119-119-------|9-------------------------------|
|----------------9-11------------|----------------X-------X-------|
|--------------------------------|--------------------------------|
|--------------------------------|--------------------------------|


Organ
 | AM7   | C#m7  | F#m7  | D/E    |                |
|--------------------------------|----------------|---------------|
|--------------------------------|----------------|---------------|
|----9---9---9-------9-------11--|(11)------------|(11)-----------|
|11------------------------------|----------------|---------------|
|--------------------------------|----------------|---------------|
|--------------------------------|----------------|---------------|

 | AM7   |G#m7+5 |C#m7/Gb|        | F#m7  |       |       |
|--------------------------------|--------------------------------|
|--------------------------------|--------------------------------|
|----9---9---9-------9-------9---|--------------------------------|
|11------------------------------|----11--(11)--------------------|
|--------------------------------|--------------------------------|
|--------------------------------|--------------------------------|

 | AM7   | C#m7  | F#m7  | D/E    |
|--------------------------------|--------------------------------|
|--------------------------------|--------------------------------|
|----9---9---9-------9-------11--|(11)----------------------------|
|11------------------------------|--------------------------------|
|--------------------------------|--------------------------------|
|--------------------------------|--------------------------------|

 |       |       |       |        | AM7   |G#m7+5 |  F#m7  |
|--------------------------------|--------------------------------|
|--------------------------------|--------------------------------|
|(11)----------------------------|----9---9---9-------9---(9)-----|
|--------------------------------|11------------------------------|
|--------------------------------|--------------------------------|
|--------------------------------|--------------------------------|

 | CM7   | Bm7+5 | Am7   |        | EbM9  | D7    | DbM7  | Cm7
|--------------------------------|------------8-------8-----------|
|8---8---8---10------8---(8)-----|11--11--11------------------11--|
|--------------------------------|--------------------------------|
|--------------------------------|--------------------------------|
|--------------------------------|--------------------------------|
|--------------------------------|--------------------------------|

 |       | Am7   |  F#m7 |        | A/B   |       |       |
|--------------------------------|------------------------7-------|
|(11)------------11--8-----------|--------------------7-9---------|
|----------------------------9---|(9)-----------------------------|
|--------------------------------|--------------------------------|
|--------------------------------|--------------------------------|
|--------------------------------|--------------------------------|


PART C
 | E7    |       |       |        |       |       |       |
|--------------------------------|--------------------------------|
|----10b---------109-----10--9---|(9)-----------------------------|
|----11b---------119-119-11--9---|(9)-----------------------------|
|--------------------119---------|--------------------------------|
|--------------------------------|--------------------------------|
|--------------------------------|--------------------------------|

 |       |       |       |        |  E    |       |       |
|--------------------------------|--------------------------------|
|--------12----10----9-109-------|--------------------12--14--15--|
|--------13----119-119-119-------|9-----------9---13--------------|
|----------------9-11------------|11------9-11--------------------|
|--------------------------------|--------------------------------|
|--------------------------------|--------------------------------|

 | E7    |       |       |        |       |       |       |
|--------------------------------|--------------------------------|
|(15)-----------(15)-14B----R14-B|-R14--12----------------------12|
|--------------------------------|--------11--------------(11)----|
|--------------------------------|--------------------------------|
|--------------------------------|--------------------------------|
|--------------------------------|--------------------------------|

 |       |       |       |        |       |       |       |
|--------------------------------|----------1617--16--------------|
|14b---(15)---------r14b-----r14b|-----r14b-----------------------|
|--------------------------------|--------------------------------|
|--------------------------------|--------------------------------|
|--------------------------------|--------------------------------|
|--------------------------------|--------------------------------|

 |       |       |       |        |       |       |       |
|--------------------------------|--------------------------------|
|--------14B---1614----1412----12|10----10----------------109---9-|
|--------------------------------|--------11B-119-11--9-------11--|
|------14------------------------|--------------------------------|
|--------------------------------|--------------------------------|
|--------------------------------|--------------------------------|

 |       |       |       |        |       |       |       |
|--------------------------------|9-129---------------------------|
|12B-R12-------------------109---|------129-----------------------|
|--------9-----------------------|----------12119---------------9-|
|--------------------------------|----------------119-----121111--|
|--------------------------------|--------------------1211--------|
|--------------------------------|--------------------------------|

 | AM7   |       |       |        | Esus4  |       |       |
|----12--12------------------12--|----14--14------------------16--|
|--------------------------------|s12--------------------s14------|
|s13--------------------s14------|--------------------------------|
|--------------------------------|--------------------------------|
|--------------------------------|--------------------------------|
|--------------------------------|--------------------------------|

 | AM7   |       |       |        | Esus4  |       |       |
|----16--16------16--17----------|--------------------------------|
|s17---------------------17b-1714|------------151414------(14)----|
|--------------------------------|16b-1614------------------------|
|--------------------------------|--------16----------------141614|
|--------------------------------|--------------------------------|
|--------------------------------|--------------------------------|

| AM7   |       |       |        | Esus4  |       |       |
|----------------14--------------|----12121212--------------------|
|----------1417----17------------|14----------14--12--------------|
|14--16--16----------16B-R-14----|--------------------------------|
|--14--14--------------------16--|--------------------------------|
|--------------------------------|--------------------------------|
|--------------------------------|--------------------------------|

 | AM7   |       |       |        | CM7   |       |       |
|--------------------------------|----------------------------1010|
|--12----------------------------|----------------------------1012|
|------------8---9---10--11--12--|12--12--(12)------------(12)----|
|----11--12----------------------|----12--(12)------------(12)----|
|--------------------------------|----12--(12)------------(12)----|
|--------------------------------|--------------------------------|

 |       |       |       |        | Am9   |       |       |
|--------------------------------|--------------------------------|
|10--------------10--12B-----12B-|--12--1012B-----1210------------|
|--129-------9-12----------------|--------------------12--(12)----|
|--------12----------------------|--------------------------------|
|--------------------------------|--------------------------------|
|--------------------------------|--------------------------------|

 | A/B   |       |       |        |  E7   |       |       |
|------1512----------------------|--------------------------------|
|------14--1512------------------|--------------------------------|
|--------------151412--------11--|14--1213------------------------|
|--------------------14121114--14|--14----141414--14--14--14--14--|
|--------------------------------|--------------------------------|
|--------------------------------|--------------------------------|

 |       |       |       |        |       |       |       |
|----12121212--1212------1719--18|17131516--------------12----1721b
|--12----------------------------|--------17--------1214----18----|
|13------------------------------|----------16141213------19------|
|--------------------------------|--------------------------------|
|--------------------------------|--------------------------------|
|--------------------------------|--------------------------------|

 |       |       |       |        |       |       |       |
|211918--------------------19----|--------------------------------|
|------212018--------20--19b-1917|19b-19b-19----------20b-20b-----|
|------------21191821--21--------|--------------------------------|
|--------------------------------|--------------------------------|
|--------------------------------|--------------------------------|
|--------------------------------|--------------------------------|

 |       |       |       |        |       |       |       |
|--------------------------------|--17--17b----rb-17151714--------|
|----20b-2020b---r20-------------|------------------------17------|
|--------------------------------|--------------------------161514|
|--------------------------------|--------------------------------|
|--------------------------------|--------------------------------|
|--------------------------------|--------------------------------|

 |       |       |       |        | AM7   |       |       |
|--------------------------------|------------------14--15--1617--|
|----------------------14171615--|14------------1417--17--17------|
|12------12--------1316--------16|----14------1415----------------|
|--1412----1414--14--------------|------151415--------------------|
|------14------------------------|--------------------------------|
|--------------------------------|--------------------------------|

 | Esus4 |       |       |        | AM7   |       |       |
|17--------14--------------------|--------------------------------|
|--------------------------------|--------------------------------|
|------------161616------161413--|----13----9---------9-----------|
|------------------------------16|1416--14------119-11--9---9-----|
|--------------------------------|------------------------------12|
|--------------------------------|--------------------------------|

 | Esus4 |       |       |        | AM7   |       |       |
|----------12--12rb--------------|--------------------12------14--|
|--------1012--12rb--109---------|--------------------------------|
|--9---11----------------119---9-|--------------111314--141114--14|
|11--12----------------------12--|11-----(11)-14------------------|
|--------------------------------|--------------------------------|
|--------------------------------|--------------------------------|

 | Esus4 |       |       |        | AM7   |       |       |
|----16--17----------------------|--------12----------------------|
|----------15--14----------------|--109-10--109-----------12--12--|
|1314--------------16----(16)----|--------------119-------12--12--|
|--------------------------------|------------------12119-12--12--|
|--------------------------------|--------------------------------|
|--------------------------------|--------------------------------|

 | CM7   |       |       |        |       |       |       |
|--------14----------------------|12------------------------------|
|(12)----16----------12----------|12----------13--1213121012--12--|
|(12)----14----------12----------|--------------------------------|
|(12)----------------12----------|--------------------------------|
|--------------------------------|--------------------------------|
|--------------------------------|--------------------------------|

 |  Am9  |       |       |        | A/B   |       |       |
|--------------------------------|--------------------------------|
|(12)----13----------------------|--------------------------------|
|------------14b-14--12----------|--------------------------------|
|----------------------1412------|--------------------------------|
|--------------------------14----|(14)----------------------------|
|--------------------------------|--------------------------------|

 |       |       |       |
|--------------------------------|
|--------------------------------|
|--------------------------------|
|--------------------------------|
|(14)----------------------------|
|--------------------------------|

Imprimer cette page

Tablatures created by Deurf, with TablEdit exported HTML.