rio funk

lee ritenour - "rio"


Ceci est mon interpretation personelle du début de ce fabuleux morceau, n'hesitez pas à me corriger si vous voyez une erreur..
Une bonne écoute de l'original aidera pour placer tout ça correctement dans le temps.
Enjoy !

Riff A   
|---------------------|-----------------|------------------|----------|
|---------5-5-5-3-5-3-|-------3-3-3-----|--------5-5-5-3-5-|3---------|
|---------5-5-5-3-5-3-|-------3-3-3-----|--------5-5-5-3-5-|3---------|  X4
|--3-5-3--------------|-3-5-3-------5---|--3-5-3-----------|---5--3-4-|
|---------------------|-----------------|------------------|----------|
|3--------------------|--------------1h2h3-----------------|-----1-2--|

Thème A
        |    |    |    |     |    |    |    |
|------|---->8--6-----------|---->5--3-----------|
|------|6-8->8--6-----------|--6->5--3-----------|
|----7-|---->9--7---------5-|7--->5--3---------7-|  ---|
|-{----|----------------{---|---------------{----|     |
|------|--------------------|--------------------|     | 
|------|--------------------|--------------------|     |
                                                       |X2
 |    |     |    |      |     |     |     |            |
|---->8--6--------->10-|----->8--6--------------|      | 
|6-8->8--6-------------|11-8->8--6--------------|      |
|---->9--7-------------|----->9--7------------7-|      |   
|----------------{-----|------------------{-----|   ---|
|----------------------|------------------------|
|----------------------|------------------------|
 
|------8886---------|------5h6p5-8-5--3-------|
|6-8---8886---------|---6--5----------3-------|
|------9997-------5-|7----------------3-----7-|
|---------------{---|--------------------{----|
|-------------------|-------------------------|
|-------------------|-------------------------| 

|----->8-6------>10-|------>8-6-------|
|6-8-->8-6----------|11-8-->8-6-------|
|----->9-7----------|------>9-7-----7-|
|---------------{---|-------------{---|
|-------------------|-----------------|
|-------------------|-----------------|

|------8886---------|------5h6p5-8-5--3-------|
|6-8---8886---------|---6--5----------3-------|
|------9997-------5-|7----------------3-----7-|
|---------------{---|--------------------{----|
|-------------------|-------------------------|
|-------------------|-------------------------|

|----->8-6---------|------8-8-8-9-10-|
|6-8-->8-6---------|----6-6-6-6-7-8--|
|----->9-7-------5-|7----------------|
|-------------{----|-----------------|
|------------------|-----------------|
|------------------|-----------------|

Imprimer cette page

Tablatures faites à la mano par Derf.. Janvier 2010.