rio samba

"larry carlton"


TablEdited by Deurf.
Une écoute attentive de l'original est nécessaire pour rendre toutes les finesses - bend, hammer, pull off, slide, etc..

PART A - Théme principal. 

 | F7    |       |       |        |       |       |       |
|--------------1011--1011--13----|10------------------------1011--|
|------------13------------------|--------------------------------|
|----------12--------------------|--------------------------------|
|--------------------------------|--------------------------------|
|--------------------------------|--------------------------------|
|--------------------------------|--------------------------------|

 |       |       |       |        |       |       |       |
|--------------------------------|--------------------------------|
|13--------------13b-------rb13--|11------------------------------|
|--------------------------------|--------------------------------|
|--------------------------------|--------------------------------|
|--------------------------------|--------------------------------|
|--------------------------------|--------------------------------|

 | E7    |       |       |        |       |       |       |
|--------------9-10--9-10--12----|9-------------------------9-10--|
|------------12------------------|--------------------------------|
|----------11--------------------|--------------------------------|
|--------------------------------|--------------------------------|
|--------------------------------|--------------------------------|
|--------------------------------|--------------------------------|

 |       |       |       |        |       |       |       |
|--------------------------------|--------------------------------|
|12----------------------12b-rb12|10------------------------------|
|--------------------------------|--------------------------------|
|--------------------------------|--------------------------------|
|--------------------------------|--------------------------------|
|--------------------------------|--------------------------------|

 | F7    |       |       |        |       |       |       |
|--------------1011--1011--13----|10------------------------1011--|
|------------13------------------|--------------------------------|
|----------12--------------------|--------------------------------|
|--------------------------------|--------------------------------|
|--------------------------------|--------------------------------|
|--------------------------------|--------------------------------|

 |       |       |       |        |       |       |       |
|--------------------------------|--------------------------------|
|13--------------13b-------rb13--|13--11--11----------------------|
|--------------------------------|--------------------------------|
|--------------------------------|--------------------------------|
|--------------------------------|--------------------------------|
|--------------------------------|--------------------------------|

PART B

 |       |       |       |        |       |       |       |
|--------------------------------|--------------------------------|
|--------------------------------|--------------------------------|
|------------12--10--------------|10------------------------------|
|----15--13----------------------|--------------------------------|
|12------------------------------|--------------------------------|
|--------------------------------|--------------------------------|

 |       |       |       |        |       |       |       |
|--------------------------------|--------------------------------|
|----16------16------16----------|----16------16------16----------|
|15------14------15----1414------|15------14------15----1414------|
|----------------------------15--|----------------------------15--|
|--------------------------------|--------------------------------|
|--------------------------------|--------------------------------|

 |       |       |       | X16
|--------------------------------|
|--------------------------------|
|--------------------------------|
|----x---x---x-------x---x---x---|
|--------------------------------|
|--------------------------------|  Partie clavier.

PART C   


 |       |       |       |        |       |       |       |
|--------------1011--1011--13----|10------------------------1011--|
|------------13------------------|--------------------------------|
|----------12--------------------|--------------------------------|
|--------------------------------|--------------------------------|
|--------------------------------|--------------------------------|
|--------------------------------|--------------------------------|

 |       |       |       |        |       |       |       |
|--------------------------------|------------------------------13|
|13----------------------13b---13|13b---1311------11----------11--|
|--------------------------------|--------------------------12----|
|--------------------------------|----------------------1213------|
|--------------------------------|--------------------------------|
|--------------------------------|--------------------------------|

 |       |       |       |        |       |       |       |
|--------15------13--------------|13--10--11--10--11----1010------|
|15161516----16------------------|--------------------------------|
|--------------------------------|--------------------------------|
|--------------------------------|------------------------------12|
|--------------------------------|--------------------------------|
|--------------------------------|--------------------------------|

 |       |       |       |        |       |       |       |
|----------13--13----13--------13|13------------------------------|
|----111315--15--15------15------|----13--------------------------|
|--12----------------------------|--------12----10----------------|
|13------------------------------|----------------12--------------|
|--------------------------------|------------------10----10------|
|--------------------------------|--------------------------------|

 |       |       |       |        |       |       |       |
|--------------------------------|--------------------------------|
|--------------------------------|----------------------------11--|
|--------------------10101010----|12b-1414------------------------|
|----------------1012--------1210|--------12--121210--10101210----|
|--------------------------------|--------------------------------|
|--------------------------------|--------------------------------|

 |       |       |       |        |       |       |       |
|--------------------------------|--------------------------------|
|11------11--13b-13------13------|11--131010----------10----------|
|--------------------------------|------------10--12----1010------|
|----------------------------10--|--------------------------------|
|--------------------------------|--------------------------------|
|--------------------------------|--------------------------------|

 |       |       |       |        |       |       |       |
|--------------------------------|--------------------------------|
|--------17b-17b-rb--------------|14b-----14------14------14------|
|--------------------------------|--------------------------------|
|--------------------14----------|--------------------------------|
|--------------------------------|--------------------------------|
|--------------------------------|--------------------------------|

PART D             

 |       |       |       |        |       |       |       |
|------------------12--1318--1818|17--171718b-181718--------------|
|------------111315--15----------|--------------------18--18------|
|----------12--------------------|--------------------------------|
|--------13----------------------|--------------------------------|
|--------------------------------|--------------------------------|
|--------------------------------|--------------------------------|

 |       |       |       |        |       |       |       |
|--------------------------------|--------------------------------|
|------------18--15----1818--18--|10----1313--13------------------|
|--------------------------------|----------------------1010------|
|--------------------------------|----------------12--------------|
|--------------------------------|--------------------------------|
|--------------------------------|--------------------------------|

 |       |       |       |        |       |       |       |
|----------13--1310--13--13----13|--------------------------------|
|--------------------------------|10--13--------------------------|
|--------------------------------|------------10------------------|
|--------------------------------|--------12----------10----------|
|--------------------------------|----------------12----1010------|
|--------------------------------|--------------------------------|

 |       |       |       |        |       |       |       |
|------------------------------11|10----------10----------10--11--|
|--------------------------1113--|--11131013----1313--------------|
|--------------------8-1012------|--------------------------------|
|----------------8-10------------|--------------------------------|
|------------8-10----------------|--------------------------------|
|--------8-10--------------------|--------------------------------|

 |       |       |       |        |       |       |       |
|15----1111--15--13------11--10--|------10------------------------|
|--------------------13--------13|131213--1312----11--10----------|
|--------------------------------|------------12----------12--109-|
|--------------------------------|--------------12----------------|
|--------------------------------|--------------------------------|
|--------------------------------|--------------------------------|

 |       |       |       |        |       |       |       |
|----------12b--r12----------10--|9-------9---109-9---------------|
|--------------------------------|--------------------12--12------|
|9-------9---------------9-------|----9---------------------------|
|--------------------------------|--------------------------------|
|--------------------------------|--------------------------------|
|--------------------------------|--------------------------------|

 |       |       |       |        |       |       |       |
|------1718--19--20--------------|17------------------------------|
|--------------------18--20--21--|----------------18--------------|
|--------------------------------|--17----19--20------------------|
|--------------------------------|--------------------------------|
|--------------------------------|--------------------------------|
|--------------------------------|--------------------------------|

 |       |       |       |        |       |       |       |
|----13--15----1315--13------13--|12--15------12------------------|
|------------------------15------|--------13------------------17--|
|--------------------------------|----------------12------12------|
|--------------------------------|--------------------------------|
|--------------------------------|--------------------------------|
|--------------------------------|--------------------------------|

PART E 

 |       |       |       |        |       |       |       |
|20------17------20--------------|--------16--20------------------|
|----18------17------------------|----20----------18--------------|
|--------------------19--19--19--|20------------------------------|
|--------------------------------|--------------------------------|
|--------------------------------|--------------------------------|
|--------------------------------|--------------------------------|

 |       |       |       |        |       |       |       |
|--------131513------131513----13|--------------1818--17--18--19--|
|15--1415------151315------1513--|15131313131518------------------|
|--------------------------------|--------------------------------|
|--------------------------------|--------------------------------|
|--------------------------------|--------------------------------|
|--------------------------------|--------------------------------|

 |       |       |       |        |       |       |       |
|20--181718--17--17--------------|--------------------------------|
|--------------20----201820--18--|17--18--19--20--------------17--|
|--------------------------------|----------------17--19--20------|
|--------------------------------|--------------------------------|
|--------------------------------|--------------------------------|
|--------------------------------|--------------------------------|

 |       |       |       |        |       |       |       |
|----------------19b-----r19---18|18--18--1818----16--------------|
|------------17------------------|--------------------------------|
|17--19--20----------------------|--------------------------------|
|--------------------------------|--------------------------------|
|--------------------------------|--------------------------------|
|--------------------------------|--------------------------------|

 |       |       |       |        |       |       |       |
|----15--15--18--18------15------|----18b-18brb---18--------------|
|--------------------------------|20----------------------20------|
|--------------------------------|--------------------------------|
|--------------------------------|--------------------------------|
|--------------------------------|--------------------------------|
|--------------------------------|--------------------------------|

 |       |       |       |        |       |       |       |
|----19b-19--19b-19br---1919b-19b|19b-19--19b-19----------------13|
|--------------------------------|----------------20------131616--|
|--------------------------------|--------------------------------|
|--------------------------------|--------------------------------|
|--------------------------------|--------------------------------|
|--------------------------------|--------------------------------|

 |       |       |       |        |       |       |       |
|1613--131613--131613------------|--------------13----------------|
|----16------16------1613--131613|--131613--1316--1615------------|
|------------------------15------|15------15----------161514--15--|
|--------------------------------|--------------------------15--15|
|--------------------------------|--------------------------------|
|--------------------------------|--------------------------------|

 |       |       |       |        |       |       |       |
|--------------------------------|--------------------------------|
|--------------------------131613|--131613------------------------|
|1314------------1314--1315------|15------161513--1314------------|
|----1513--121315----15----------|--------------15----1513--------|
|--------15----------------------|------------------------15141311|
|--------------------------------|--------------------------------|

Imprimer cette page

Tablatures created by derf, with TablEdit exported HTML.