Stripped me Naked
Album "blurp ?!?"

Tabledited by Deurf
Pour une version JPEG, sauvable cliquez ici

 | C7sus4 |       |       |        | C7    |       |       |
|--------------------------------|--------------------------------|
|------------------------8---10--|10------------------------------|
|----------------7---9-----------|--------------------------------|
|--------------------------------|--------------------------------|
|--------------------------------|--------------------------------|
|--------------------------------|--------------------------------|

 |       |       |       |        |       |       |       |
|--------------------------------|--------------------------------|
|10----------10--10--8-----------|8-------------------------------|
|------------------------7---9---|--------------------------------|
|--------------------------------|--------------------------------|
|--------------------------------|--------------------------------|
|--------------------------------|--------------------------------|

 |       |       |       |        |       |       |       |
|--------------------------------|--------------------------------|
|8-----------------------8---10--|10------------------------------|
|----------------7---9-----------|--------------------------------|
|--------------------------------|--------------------------------|
|--------------------------------|--------------------------------|
|--------------------------------|--------------------------------|

 |       |       |       |        |       |       |       |
|----------------10--------------|--------------------------------|
|10------------------10--8-------|8-108---------------------------|
|----------------------------9---|--------------------------------|
|--------------------------------|--------------------------------|
|--------------------------------|--------------------------------|
|--------------------------------|--------------------------------|

 |       |       |       |        |       |       |       |
|--------------------------------|--------------------------------|
|--------------------------------|--------------------------------|
|8-------8-------8-------8-------|----------------10--8-----------|
|--------------------------------|------------------------10--8---|
|--------------------------------|--------------------------------|
|--------------------------------|--------------------------------|

 |       |       |       |        |       |       |       |
|--------------------------------|--------------------------------|
|--------------------------------|------------------------8---10--|
|----8---------------------------|----------------7---9-----------|
|10------10--8---------------10--|10------------------------------|
|--------------------------------|--------------------------------|
|--------------------------------|--------------------------------|

 |       |       |       |        |       |       |       |
|--------------------------------|--------------------------------|
|10------------------------------|10--------------10108-----------|
|--------------------------------|------------------------7---9---|
|--------------------------------|--------------------------------|
|--------------------------------|--------------------------------|
|--------------------------------|--------------------------------|

 |       |       |       |
|----------------------------8---|
|8-------------------------------|
|--------------------------------|
|--------------------------------|
|--------------------------------|
|--------------------------------|

Solo .. Par votre serviteur. | | | | | | | | |--------------------------------|--------------------------------| |--------------------------------|--------------------------------| |--------------------------------|--------------------------------| |--------------------------------|8-------10--8-------------------| |--------------------------7-10--|----------------10--8---7-------| |------------------------8-------|--------------------------------| | | | | | | | | |--------------------------------|--8-10108-108-------10------8---| |--------8---10------10--8-----8-|9---------------10------10------| |7---9-----------9-----------9---|--------------------------------| |--------------------------------|--------------------------------| |--------------------------------|--------------------------------| |--------------------------------|--------------------------------| | | | | | | | | |13------13--121313--13--12--1312|131818--171817------------------| |--------------------------------|----------------1817------------| |--------------------------------|--------------------17------15--| |--------------------------------|------------------------1715----| |--------------------------------|--------------------------------| |--------------------------------|--------------------------------| | | | | | | | | |--------------------------------|--------------------------------| |--------------------------------|17------------------18----------| |17------151715--151715------1715|--1715----------1518----1715----| |--------------17------171517----|--------171517--------------17--| |--------------------------------|--------------------------------| |--------------------------------|--------------------------------| | | | | | | | | |------------15--181717--15------|--------------------------------| |----------18--------------1818--|171713--171317131713151115111511| |----15--17----------------------|--------------------------------| |1517----------------------------|--------------------------------| |--------------------------------|--------------------------------| |--------------------------------|--------------------------------| | | | | | | | | |--------------------------------|--------------------------------| |10--8---10--13--8---------------|--------------------------------| |------------------1012109-------|--------------------------------| |--------------------------10--8-|10--8---------------------------| |----------------------------10--|--------------------------------| |--------------------------------|--------------------------------|
Imprimer cette page