Sudden Samba
neil larsen - "jungle fever"


Ceci est mon interpretation personelle du théme principal de cette sublime samba, n'hesitez pas à me corriger si vous voyez une erreur..
Une ecoute attentive de l'original aidera pour placer tout ça correctement dans le tempo.
Enjoy !

Part 1
 EbM7        Dm7                  EbM7        Dm7
  |       |       |       |        |       |       |       |        
|---------10---------------------|---------10------13-------------|
|------11-----13------10---------|------11-----13----------10-----|
|----12------------------10------|----12--------------------------|   X3
|13--------------------------12--|13------------------------------|
|--------------------------------|--------------------------------|
|--------------------------------|--------------------------------|
EbM7        Dm7                  EbM7         Dm7    Part2---------
 |       |       |       |        |       |       |   ¦    |        
|--------11--------------10------|--------10---8-----10-----------|
|--------------------------------|------11--------------------13--|
|11->12------12--11--10-----10-9-|8---12--------------------------|
|--------------------------------|--------------------------------|
|--------------------------------|--------------------------------|
|--------------------------------|--------------------------------|
Part 2
Cm7                              EbM7								
 |       |       |       |        |       |       |       |        
|--------------------------------|--------------------------------|
|11--10--------------13-----11---|10------------------------------|
|--------12----------------------|-----12----10-------------------|   
|--------------------------------|----------------------12->10->12|
|--------------------------------|--------------------------------|
|--------------------------------|--------------------------------|
Gm7                               Gm7				       X2				
 |       |       |       |        |       |       |       |        
|--------------------------------|--------------------10----------|
|--------------------------------|----------------------------13--|
|--------------------------------|--------------------------------|   
|--------------------------------|--------------------------------|
|--------------------------------|--------------------------------|
|--------------------------------|--------------------------------|
Debut solo - Part 2
                                 EbM7       Dm7    
 |      |       |       |        |       |       |       |        
|------18--17--15------15--18----|18(b)---------------------------|
|------------------18------------|--------------------------------|
|1515----------------------------|--------------------------------|
|--------------------------------|--------------------------------|
|--------------------------------|--------------------------------|
|--------------------------------|--------------------------------|
 

Imprimer cette page

Tablatures created with TablEdit exported HTML. Le Derf - Mai 2009.