Superstition

stevie wonders


Petit aide memoire pour ce morceau (simplifié) bien sympatoche à jammer sans fin (ou taper l'boeuf), entre pôtes
Backing track, cliquez ici avec vocaux originaux..
  
Riff principal
  Em9       A7       Em9         A7       Em9
|-(0)------------------|---------0----------|
|--7--------8----------|--------------------|
|-(0)------------------|--------------------|
|-----------5----------|---------5----------|
|-----7-5-7-----5----7-|-----5-7-----5----7-|
|--0----------x----x---|-5-7-------x----x---|
Variation
|--------------------|---------0-----------|
|---------8----------|---------------------|
|---9-7-9-7---7----9-|---------------------|
|---9-7-9-----7----9-|---------5-----------|
|--------------------|-----5-7-----5----7--|
|-0---------x----x---|-5-7-------x----x----|


 Bridge (4 mesures)

 B7             C711+              B7          Bb13+11         
|--------------------------------|---------------0----------------|
|-7--------------8------7--------|-7-------------8----------------|
|-8--------------9------9--------|-8-------------7----------------|
|-7--------------8--ou--8--------|-7-------------6----------------|
|----------------9---------------|--------------------------------|
|-7--------------8------8--------|-7-------------6----------------|
Variation
 B              C 11+              B           Bb+11         
|--------------------------------|--------------------------------|
|--7-------------7---------------|-7-------------5----------------|
|--8-------------9---------------|-8-------------7----------------|
|--9-------------10--------------|-9-------------8----------------|
|--9-------------10--------------|-9-------------8----------------|
|-(7)-----------(8)--------------|-7------------(6)---------------|


  A7                                   B7+9
|------------------------------------|-------------3-3-0------------|
|-5--(5)-----------------------------|-3-3-3-3-3-3-3-3---0----------|
|-6--(6)-----------------------------|-2-2-2-2-2-2-2-2-----2p0h2p0--|
|-5--(5)-----------------------------|-1-1-1-1-1-1-1-1--------------|
|---------h7-10-(10)p7-10S12S10p7----|-2-2-2-2-2-2-2-2--------------|
|--5h--7-9-------------------------5-|------------------------------|


Imprimer cette page

Tablatures faites à la mano par Derf.. Fevrier 2010.