This Time Tomorrow
neil larsen - "High Gear"


Ceci est mon interpretation personelle du théme principal de ce fabuleux morceau, n'hesitez pas à me corriger si vous voyez une erreur..
Une ecoute attentive de l'original aidera pour placer tout ça correctement dans le tempo.
Enjoy !

 |       |       |       |        |       |       |       |
|--------------------------------|-------/8-------7--------------/|
|----------------------------5-6-|8-------------------------------|
|--------------------------------|--------------------------------|
|--------------------------------|--------------------------------|
|--------------------------------|--------------------------------|
|--------------------------------|--------------------------------|

 |       |       |       |        |       |       |       |
|7-------5-----------------------|--------------------------------|
|----------------5-------5---8--/|5-------------------------------|
|------------7-------7-----------|--------------------------------|
|--------------------------------|--------------------------------|
|--------------------------------|--------------------------------|
|--------------------------------|--------------------------------|

 |       |       |       |        |       |       |       |
|--------------------------------|--------8-------7---------------|
|----------------------6-5h6p5---|8-------------------------------|
|------------------------------7-|--------------------------------|
|--------------------------------|--------------------------------|
|--------------------------------|--------------------------------|
|--------------------------------|--------------------------------|

 |       |       |       |        |       |       |       |
|7-------5-----------------------|8-----8---------10----12--------|
|----------------5-------8---10--|------------10--------------8-10|
|------------7-------7-----------|--------------------------------|
|--------------------------------|--------------------------------|
|--------------------------------|--------------------------------|
|--------------------------------|--------------------------------|

 |       |       |       |
|8-----8-------------------------|
|----------10----------------8-10|
|--------------/9----------------|
|--------------------------------|
|--------------------------------|
|--------------------------------|

 |       |       |       |        |       |       |       |
|8-----8---------10----12----8-10|12--8---------------------------|
|------------10------------------|----------------8-------6---5---|
|--------------------------------|------------9-------------------|
|--------------------------------|--------------------------------|
|--------------------------------|--------------------------------|
|--------------------------------|--------------------------------|

 |       |       |       |        |       |       |       |
|--------------------------------|8---------------------6-5h6p5---|
|8-------------------------6-5---|------------------------------6/|
|------------------------------7-|--------------------------------|
|--------------------------------|--------------------------------|
|--------------------------------|--------------------------------|
|--------------------------------|--------------------------------|

 |       |       |       |        |       |       |       |
|--------------------------------|8---------------------6-5h6p5---|
|8-------------------------6-5---|------------------------------6/|
|------------------------------7-|--------------------------------|
|--------------------------------|--------------------------------|
|--------------------------------|--------------------------------|
|--------------------------------|--------------------------------|

 |       |       |       |        |       |       |       |
|--------------------------------|8-----------------------------5-|
|8-------------------------6-5---|--------------------------6-8---|
|------------------------------7-|--------------------------------|
|--------------------------------|--------------------------------|
|--------------------------------|--------------------------------|
|--------------------------------|--------------------------------|


 |       |       |       |        |       |       |       |
|6---5---5-------------------5---|------------5-----------------5-|
|------------6--/8---------------|---------------/8---------6-8---|
|-------------------------------/|7-------------------------------|
|--------------------------------|--------------------------------|
|--------------------------------|--------------------------------|
|--------------------------------|--------------------------------|

 |       |       |       |        |       |       |       |
|6---8---5-------------------5---|------------5-------------------||
|------------6--/8---------------|---------------/8-----------5-6-||
|-------------------------------/|7-------------------------------||
|--------------------------------|--------------------------------||
|--------------------------------|--------------------------------||
|--------------------------------|--------------------------------||

Imprimer cette page

Tablatures created with TablEdit exported HTML. Le Derf 11/2002.